Members of Supercar, from left to right: Nakamura Koji, Furukawa Miki, Ishiwatari Junji, Tazawa Kodai

Supercar Tabs

Rhythm Guitar tabs for 「Drive」 by Supercar

Posted by ZeManic
Tabbed by: ZeManic

This is my interpretation of the rhythm guitar. If you feel like there's something wrong, shoot me a mail.

Tempo = 116

     E                             G#                          
     
E||--0--0--0--0-0--0-0--0-0-0-0-|--4--4--4--4-4--4-4--4-4-4-4-|
B||--0--0--0--0-0--0-0--0-0-0-0-|--4--4--4--4-4--4-4--4-4-4-4-|
G||--1--1--1--1-1--1-1--1-1-1-1-|--5--5--5--5-5--5-5--5-5-5-5-|
D||--2--2--2--2-2--2-2--2-2-2-2-|--6--6--6--6-6--6-6--6-6-6-6-|
A||--2--2--2--2-2--2-2--2-2-2-2-|--6--6--6--6-6--6-6--6-6-6-6-|
E||--0--0--0--0-0--0-0--0-0-0-0-|--4--4--4--4-4--4-4--4-4-4-4-|


  A                             F#                          
    
--5--5--5--5-5--5-5--5-5-5-5-|--2--2--2--2-2--2-2--2-2-2-2-|
--5--5--5--5-5--5-5--5-5-5-5-|--2--2--2--2-2--2-2--2-2-2-2-|
--6--6--6--6-6--6-6--6-6-6-6-|--3--3--3--3-3--3-3--3-3-3-3-|
--7--7--7--7-7--7-7--7-7-7-7-|--4--4--4--4-4--4-4--4-4-4-4-|
--7--7--7--7-7--7-7--7-7-7-7-|--4--4--4--4-4--4-4--4-4-4-4-|
--5--5--5--5-5--5-5--5-5-5-5-|--2--2--2--2-2--2-2--2-2-2-2-|


  E                             G#                          
    
--0--0--0--0-0--0-0--0-0-0-0-|--4--4--4--4-4--4-4--4-4-4-4-|
--0--0--0--0-0--0-0--0-0-0-0-|--4--4--4--4-4--4-4--4-4-4-4-|
--1--1--1--1-1--1-1--1-1-1-1-|--5--5--5--5-5--5-5--5-5-5-5-|
--2--2--2--2-2--2-2--2-2-2-2-|--6--6--6--6-6--6-6--6-6-6-6-|
--2--2--2--2-2--2-2--2-2-2-2-|--6--6--6--6-6--6-6--6-6-6-6-|
--0--0--0--0-0--0-0--0-0-0-0-|--4--4--4--4-4--4-4--4-4-4-4-|


  A                             F#                          
   
--5--5--5--5-5--5-5--5-5-5-5-|--2--2--2--2-2--2-2--2-2-2-2-|
--5--5--5--5-5--5-5--5-5-5-5-|--2--2--2--2-2--2-2--2-2-2-2-|
--6--6--6--6-6--6-6--6-6-6-6-|--3--3--3--3-3--3-3--3-3-3-3-|
--7--7--7--7-7--7-7--7-7-7-7-|--4--4--4--4-4--4-4--4-4-4-4-|
--7--7--7--7-7--7-7--7-7-7-7-|--4--4--4--4-4--4-4--4-4-4-4-|
--5--5--5--5-5--5-5--5-5-5-5-|--2--2--2--2-2--2-2--2-2-2-2-|


    E                             G#                          
     
|---0--0--0--0-0--0-0--0-0-0-0-|--4--4--4--4-4--4-4--4-4-4-4-|
|---0--0--0--0-0--0-0--0-0-0-0-|--4--4--4--4-4--4-4--4-4-4-4-|
|*--1--1--1--1-1--1-1--1-1-1-1-|--5--5--5--5-5--5-5--5-5-5-5-|
|*--2--2--2--2-2--2-2--2-2-2-2-|--6--6--6--6-6--6-6--6-6-6-6-|
|---2--2--2--2-2--2-2--2-2-2-2-|--6--6--6--6-6--6-6--6-6-6-6-|
|---0--0--0--0-0--0-0--0-0-0-0-|--4--4--4--4-4--4-4--4-4-4-4-|


  A                             F#                          
   
--5--5--5--5-5--5-5--5-5-5-5-|--2--2--2--2-2--2-2--2-2-2-2-|
--5--5--5--5-5--5-5--5-5-5-5-|--2--2--2--2-2--2-2--2-2-2-2-|
--6--6--6--6-6--6-6--6-6-6-6-|--3--3--3--3-3--3-3--3-3-3-3-|
--7--7--7--7-7--7-7--7-7-7-7-|--4--4--4--4-4--4-4--4-4-4-4-|
--7--7--7--7-7--7-7--7-7-7-7-|--4--4--4--4-4--4-4--4-4-4-4-|
--5--5--5--5-5--5-5--5-5-5-5-|--2--2--2--2-2--2-2--2-2-2-2-|


  E                             G#                          
   
--0--0--0--0-0--0-0--0-0-0-0-|--4--4--4--4-4--4-4--4-4-4-4-|
--0--0--0--0-0--0-0--0-0-0-0-|--4--4--4--4-4--4-4--4-4-4-4-|
--1--1--1--1-1--1-1--1-1-1-1-|--5--5--5--5-5--5-5--5-5-5-5-|
--2--2--2--2-2--2-2--2-2-2-2-|--6--6--6--6-6--6-6--6-6-6-6-|
--2--2--2--2-2--2-2--2-2-2-2-|--6--6--6--6-6--6-6--6-6-6-6-|
--0--0--0--0-0--0-0--0-0-0-0-|--4--4--4--4-4--4-4--4-4-4-4-|


  A                             F#                          
    
--5--5--5--5-5--5-5--5-5-5-5-|--2--2--2--2-2--2-2--2-2-2-2-|
--5--5--5--5-5--5-5--5-5-5-5-|--2--2--2--2-2--2-2--2-2-2-2-|
--6--6--6--6-6--6-6--6-6-6-6-|--3--3--3--3-3--3-3--3-3-3-3-|
--7--7--7--7-7--7-7--7-7-7-7-|--4--4--4--4-4--4-4--4-4-4-4-|
--7--7--7--7-7--7-7--7-7-7-7-|--4--4--4--4-4--4-4--4-4-4-4-|
--5--5--5--5-5--5-5--5-5-5-5-|--2--2--2--2-2--2-2--2-2-2-2-|


  E                        F#                       A                      
 
--0----0--0----0--0--0--|--2----2--2----2--2--2--|--5----5--5----5--5--5--|
--0----0--0----0--0--0--|--2----2--2----2--2--2--|--5----5--5----5--5--5--|
--1----1--1----1--1--1--|--3----3--3----3--3--3--|--6----6--6----6--6--6--|
--2----2--2----2--2--2--|--4----4--4----4--4--4--|--7----7--7----7--7--7--|
--2----2--2----2--2--2--|--4----4--4----4--4--4--|--7----7--7----7--7--7--|
--0----0--0----0--0--0--|--2----2--2----2--2--2--|--5----5--5----5--5--5--|


  B                        E                        F#                     
  
--7----7--7----7--7--7--|--0----0--0----0--0--0--|--2----2--2----2--2--2--|
--7----7--7----7--7--7--|--0----0--0----0--0--0--|--2----2--2----2--2--2--|
--8----8--8----8--8--8--|--1----1--1----1--1--1--|--3----3--3----3--3--3--|
--9----9--9----9--9--9--|--2----2--2----2--2--2--|--4----4--4----4--4--4--|
--9----9--9----9--9--9--|--2----2--2----2--2--2--|--4----4--4----4--4--4--|
--7----7--7----7--7--7--|--0----0--0----0--0--0--|--2----2--2----2--2--2--|


  A                        B                        E                       
     
--5----5--5----5--5--5--|--7----7--7----7--7--7--|--0----0--0-0--0-0--0----|
--5----5--5----5--5--5--|--7----7--7----7--7--7--|--0----0--0-0--0-0--0----|
--6----6--6----6--6--6--|--8----8--8----8--8--8--|--1----1--1-1--1-1--1----|
--7----7--7----7--7--7--|--9----9--9----9--9--9--|--2----2--2-2--2-2--2----|
--7----7--7----7--7--7--|--9----9--9----9--9--9--|--2----2--2-2--2-2--2----|
--5----5--5----5--5--5--|--7----7--7----7--7--7--|--0----0--0-0--0-0--0----|


  F#                        A                         B                       
    
--2----2--2-2--2-2--2----|--5----5--5-5--5-5--5----|--7----7--7-7--7-7--7----|
--2----2--2-2--2-2--2----|--5----5--5-5--5-5--5----|--7----7--7-7--7-7--7----|
--3----3--3-3--3-3--3----|--6----6--6-6--6-6--6----|--8----8--8-8--8-8--8----|
--4----4--4-4--4-4--4----|--7----7--7-7--7-7--7----|--9----9--9-9--9-9--9----|
--4----4--4-4--4-4--4----|--7----7--7-7--7-7--7----|--9----9--9-9--9-9--9----|
--2----2--2-2--2-2--2----|--5----5--5-5--5-5--5----|--7----7--7-7--7-7--7----|


  E                         F#                        A                       
       
--0----0--0-0--0-0--0----|--2----2--2-2--2-2--2----|--5----5--5-5--5-5--5----|
--0----0--0-0--0-0--0----|--2----2--2-2--2-2--2----|--5----5--5-5--5-5--5----|
--1----1--1-1--1-1--1----|--3----3--3-3--3-3--3----|--6----6--6-6--6-6--6----|
--2----2--2-2--2-2--2----|--4----4--4-4--4-4--4----|--7----7--7-7--7-7--7----|
--2----2--2-2--2-2--2----|--4----4--4-4--4-4--4----|--7----7--7-7--7-7--7----|
--0----0--0-0--0-0--0----|--2----2--2-2--2-2--2----|--5----5--5-5--5-5--5----|


  B                         A                           
   
--7----7--7-7--7-7--7----|--5--5--5--5-5--5-5--5-5-5-5-|
--7----7--7-7--7-7--7----|--5--5--5--5-5--5-5--5-5-5-5-|
--8----8--8-8--8-8--8----|--6--6--6--6-6--6-6--6-6-6-6-|
--9----9--9-9--9-9--9----|--7--7--7--7-7--7-7--7-7-7-7-|
--9----9--9-9--9-9--9----|--7--7--7--7-7--7-7--7-7-7-7-|
--7----7--7-7--7-7--7----|--5--5--5--5-5--5-5--5-5-5-5-|


  G#         F#                 E                           
 
--4--4--4--4-2--2-2--2-2-2-2-|--0--0--0--0-0--0-0--0-0-0-0-|
--4--4--4--4-2--2-2--2-2-2-2-|--0--0--0--0-0--0-0--0-0-0-0-|
--5--5--5--5-3--3-3--3-3-3-3-|--1--1--1--1-1--1-1--1-1-1-1-|
--6--6--6--6-4--4-4--4-4-4-4-|--2--2--2--2-2--2-2--2-2-2-2-|
--6--6--6--6-4--4-4--4-4-4-4-|--2--2--2--2-2--2-2--2-2-2-2-|
--4--4--4--4-2--2-2--2-2-2-2-|--0--0--0--0-0--0-0--0-0-0-0-|


  E                             A                           
   
--0--0--0--0-0--0-0--0-0-0-0-|--5--5--5--5-5--5-5--5-5-5-5-|
--0--0--0--0-0--0-0--0-0-0-0-|--5--5--5--5-5--5-5--5-5-5-5-|
--1--1--1--1-1--1-1--1-1-1-1-|--6--6--6--6-6--6-6--6-6-6-6-|
--2--2--2--2-2--2-2--2-2-2-2-|--7--7--7--7-7--7-7--7-7-7-7-|
--2--2--2--2-2--2-2--2-2-2-2-|--7--7--7--7-7--7-7--7-7-7-7-|
--0--0--0--0-0--0-0--0-0-0-0-|--5--5--5--5-5--5-5--5-5-5-5-|


  G#         F#                 E                           
   
--4--4--4--4-2--2-2--2-2-2-2-|--0--0--0--0-0--0-0--0-0-0-0-|
--4--4--4--4-2--2-2--2-2-2-2-|--0--0--0--0-0--0-0--0-0-0-0-|
--5--5--5--5-3--3-3--3-3-3-3-|--1--1--1--1-1--1-1--1-1-1-1-|
--6--6--6--6-4--4-4--4-4-4-4-|--2--2--2--2-2--2-2--2-2-2-2-|
--6--6--6--6-4--4-4--4-4-4-4-|--2--2--2--2-2--2-2--2-2-2-2-|
--4--4--4--4-2--2-2--2-2-2-2-|--0--0--0--0-0--0-0--0-0-0-0-|


  E                     E                           
  
--0-----------------||--0--0--0--0-0--0-0--0-0-0-0-|
--0-----------------||--0--0--0--0-0--0-0--0-0-0-0-|
--1----------------*||--1--1--1--1-1--1-1--1-1-1-1-|
--2----------------*||--2--2--2--2-2--2-2--2-2-2-2-|
--2-----------------||--2--2--2--2-2--2-2--2-2-2-2-|
--0-----------------||--0--0--0--0-0--0-0--0-0-0-0-|


  G#                            A                           
   
--4--4--4--4-4--4-4--4-4-4-4-|--5--5--5--5-5--5-5--5-5-5-5-|
--4--4--4--4-4--4-4--4-4-4-4-|--5--5--5--5-5--5-5--5-5-5-5-|
--5--5--5--5-5--5-5--5-5-5-5-|--6--6--6--6-6--6-6--6-6-6-6-|
--6--6--6--6-6--6-6--6-6-6-6-|--7--7--7--7-7--7-7--7-7-7-7-|
--6--6--6--6-6--6-6--6-6-6-6-|--7--7--7--7-7--7-7--7-7-7-7-|
--4--4--4--4-4--4-4--4-4-4-4-|--5--5--5--5-5--5-5--5-5-5-5-|


  F#                            E                           
   
--2--2--2--2-2--2-2--2-2-2-2-|--0--0--0--0-0--0-0--0-0-0-0-|
--2--2--2--2-2--2-2--2-2-2-2-|--0--0--0--0-0--0-0--0-0-0-0-|
--3--3--3--3-3--3-3--3-3-3-3-|--1--1--1--1-1--1-1--1-1-1-1-|
--4--4--4--4-4--4-4--4-4-4-4-|--2--2--2--2-2--2-2--2-2-2-2-|
--4--4--4--4-4--4-4--4-4-4-4-|--2--2--2--2-2--2-2--2-2-2-2-|
--2--2--2--2-2--2-2--2-2-2-2-|--0--0--0--0-0--0-0--0-0-0-0-|


  G#                            A                           
  
--4--4--4--4-4--4-4--4-4-4-4-|--5--5--5--5-5--5-5--5-5-5-5-|
--4--4--4--4-4--4-4--4-4-4-4-|--5--5--5--5-5--5-5--5-5-5-5-|
--5--5--5--5-5--5-5--5-5-5-5-|--6--6--6--6-6--6-6--6-6-6-6-|
--6--6--6--6-6--6-6--6-6-6-6-|--7--7--7--7-7--7-7--7-7-7-7-|
--6--6--6--6-6--6-6--6-6-6-6-|--7--7--7--7-7--7-7--7-7-7-7-|
--4--4--4--4-4--4-4--4-4-4-4-|--5--5--5--5-5--5-5--5-5-5-5-|


  F#                            E                        F#                     
  
--2--2--2--2-2--2-2--2-2-2-2-|--0----0--0----0--0--0--|--2----2--2----2--2--2--|
--2--2--2--2-2--2-2--2-2-2-2-|--0----0--0----0--0--0--|--2----2--2----2--2--2--|
--3--3--3--3-3--3-3--3-3-3-3-|--1----1--1----1--1--1--|--3----3--3----3--3--3--|
--4--4--4--4-4--4-4--4-4-4-4-|--2----2--2----2--2--2--|--4----4--4----4--4--4--|
--4--4--4--4-4--4-4--4-4-4-4-|--2----2--2----2--2--2--|--4----4--4----4--4--4--|
--2--2--2--2-2--2-2--2-2-2-2-|--0----0--0----0--0--0--|--2----2--2----2--2--2--|


  A                        B                        E                      
 
--5----5--5----5--5--5--|--7----7--7----7--7--7--|--0----0--0----0--0--0--|
--5----5--5----5--5--5--|--7----7--7----7--7--7--|--0----0--0----0--0--0--|
--6----6--6----6--6--6--|--8----8--8----8--8--8--|--1----1--1----1--1--1--|
--7----7--7----7--7--7--|--9----9--9----9--9--9--|--2----2--2----2--2--2--|
--7----7--7----7--7--7--|--9----9--9----9--9--9--|--2----2--2----2--2--2--|
--5----5--5----5--5--5--|--7----7--7----7--7--7--|--0----0--0----0--0--0--|


  F#                       A                        B                      
   
--2----2--2----2--2--2--|--5----5--5----5--5--5--|--7----7--7----7--7--7--|
--2----2--2----2--2--2--|--5----5--5----5--5--5--|--7----7--7----7--7--7--|
--3----3--3----3--3--3--|--6----6--6----6--6--6--|--8----8--8----8--8--8--|
--4----4--4----4--4--4--|--7----7--7----7--7--7--|--9----9--9----9--9--9--|
--4----4--4----4--4--4--|--7----7--7----7--7--7--|--9----9--9----9--9--9--|
--2----2--2----2--2--2--|--5----5--5----5--5--5--|--7----7--7----7--7--7--|


  A                             G#         F#               
 
--5--5--5--5-5--5-5--5-5-5-5-|--4--4--4--4-2--2-2--2-2-2-2-|
--5--5--5--5-5--5-5--5-5-5-5-|--4--4--4--4-2--2-2--2-2-2-2-|
--6--6--6--6-6--6-6--6-6-6-6-|--5--5--5--5-3--3-3--3-3-3-3-|
--7--7--7--7-7--7-7--7-7-7-7-|--6--6--6--6-4--4-4--4-4-4-4-|
--7--7--7--7-7--7-7--7-7-7-7-|--6--6--6--6-4--4-4--4-4-4-4-|
--5--5--5--5-5--5-5--5-5-5-5-|--4--4--4--4-2--2-2--2-2-2-2-|


  E                             E                           
  
--0--0--0--0-0--0-0--0-0-0-0-|--0--0--0--0-0--0-0--0-0-0-0-|
--0--0--0--0-0--0-0--0-0-0-0-|--0--0--0--0-0--0-0--0-0-0-0-|
--1--1--1--1-1--1-1--1-1-1-1-|--1--1--1--1-1--1-1--1-1-1-1-|
--2--2--2--2-2--2-2--2-2-2-2-|--2--2--2--2-2--2-2--2-2-2-2-|
--2--2--2--2-2--2-2--2-2-2-2-|--2--2--2--2-2--2-2--2-2-2-2-|
--0--0--0--0-0--0-0--0-0-0-0-|--0--0--0--0-0--0-0--0-0-0-0-|


  A                             G#         F#               
    
--5--5--5--5-5--5-5--5-5-5-5-|--4--4--4--4-2--2-2--2-2-2-2-|
--5--5--5--5-5--5-5--5-5-5-5-|--4--4--4--4-2--2-2--2-2-2-2-|
--6--6--6--6-6--6-6--6-6-6-6-|--5--5--5--5-3--3-3--3-3-3-3-|
--7--7--7--7-7--7-7--7-7-7-7-|--6--6--6--6-4--4-4--4-4-4-4-|
--7--7--7--7-7--7-7--7-7-7-7-|--6--6--6--6-4--4-4--4-4-4-4-|
--5--5--5--5-5--5-5--5-5-5-5-|--4--4--4--4-2--2-2--2-2-2-2-|


  E                             E                           
   
--0--0--0--0-0--0-0--0-0-0-0-|--0--0--0--0-0--0-0--0-0-0-0-|
--0--0--0--0-0--0-0--0-0-0-0-|--0--0--0--0-0--0-0--0-0-0-0-|
--1--1--1--1-1--1-1--1-1-1-1-|--1--1--1--1-1--1-1--1-1-1-1-|
--2--2--2--2-2--2-2--2-2-2-2-|--2--2--2--2-2--2-2--2-2-2-2-|
--2--2--2--2-2--2-2--2-2-2-2-|--2--2--2--2-2--2-2--2-2-2-2-|
--0--0--0--0-0--0-0--0-0-0-0-|--0--0--0--0-0--0-0--0-0-0-0-|


  A                             G#         F#               
  
--5--5--5--5-5--5-5--5-5-5-5-|--4--4--4--4-2--2-2--2-2-2-2-|
--5--5--5--5-5--5-5--5-5-5-5-|--4--4--4--4-2--2-2--2-2-2-2-|
--6--6--6--6-6--6-6--6-6-6-6-|--5--5--5--5-3--3-3--3-3-3-3-|
--7--7--7--7-7--7-7--7-7-7-7-|--6--6--6--6-4--4-4--4-4-4-4-|
--7--7--7--7-7--7-7--7-7-7-7-|--6--6--6--6-4--4-4--4-4-4-4-|
--5--5--5--5-5--5-5--5-5-5-5-|--4--4--4--4-2--2-2--2-2-2-2-|


  E                             E                  
                
--0--0--0--0-0--0-0--0-0-0-0-|--0----------------||
--0--0--0--0-0--0-0--0-0-0-0-|--0----------------||
--1--1--1--1-1--1-1--1-1-1-1-|--1----------------||
--2--2--2--2-2--2-2--2-2-2-2-|--2----------------||
--2--2--2--2-2--2-2--2-2-2-2-|--2----------------||
--0--0--0--0-0--0-0--0-0-0-0-|--0----------------||

Comments

Guest