Members of Supercar, from left to right: Nakamura Koji, Furukawa Miki, Ishiwatari Junji, Tazawa Kodai

Supercar Tabs

Lead Guitar tabs for 「Drive」 by Supercar

Posted by ZeManic
Tabbed by: ZeManic

This is the lead guitar. There is another guitar playing through majority of the song, but the majority of what you hear/get is here. Enjoy!

Tablature Legend
----------------
L - tied note
x - dead note
g - grace note
(n) - ghost note
> - accentuded note
NH - natural harmonic
AH - artificial harmonic
TH - tapped harmonic
SH - semi harmonic
PH - pitch harmonic
h - hammer on
p - pull off
b - bend
br - bendRelease
pb - preBend
pbr - preBendRelease
brb - bendReleaseBend
\n/ - tremolo bar dip
\n - tremolo bar dive
-/n - tremolo bar Release up
/n\ - tremolo bar inverted dip
/n - tremolo bar return
-\n - tremolo bar Release down
S - shift slide
s - legato slide
/ -  slide into from below or out of upwards
\ -  slide into from above or out of downwards
~ - vibrato
W - wide vibrato
tr - trill
TP - tremolo picking
T - tapping
S - slap
P - pop
< - fade in
^ - brush up
v - brush down


Tempo = 116

     E                              G#5                                   
    
E||-----------------------------|----------------------------------------|
B||-----------------------------|----------------------------------------|
G||--9--9--9--9-9--9-9--9-9-9-9-|--13--13--13--13-13--13-13--13-13-13-13-|
D||--9--9--9--9-9--9-9--9-9-9-9-|--13--13--13--13-13--13-13--13-13-13-13-|
A||--7--7--7--7-7--7-7--7-7-7-7-|--11--11--11--11-11--11-11--11-11-11-11-|
E||-----------------------------|----------------------------------------|


   A5                                    

----------------------------------------|
----------------------------------------|
--14--14--14--14-14--14-14--14-14-14-14-|
--14--14--14--14-14--14-14--14-14-14-14-|
--12--12--12--12-12--12-12--12-12-12-12-|
----------------------------------------|


   F#5                                     E                           
 
----------------------------------------|-----------------------------|
----------------------------------------|-----------------------------|
--11--11--11--11-11--11-11--11-11-11-11-|--9--9--9--9-9--9-9--9-9-9-9-|
--11--11--11--11-11--11-11--11-11-11-11-|--9--9--9--9-9--9-9--9-9-9-9-|
---9---9---9---9--9---9--9---9--9--9--9-|--7--7--7--7-7--7-7--7-7-7-7-|
----------------------------------------|-----------------------------|


   G#5                                   
  
----------------------------------------|
----------------------------------------|
--13--13--13--13-13--13-13--13-13-13-13-|
--13--13--13--13-13--13-13--13-13-13-13-|
--11--11--11--11-11--11-11--11-11-11-11-|
----------------------------------------|


   A5                                    
   
----------------------------------------|
----------------------------------------|
--14--14--14--14-14--14-14--14-14-14-14-|
--14--14--14--14-14--14-14--14-14-14-14-|
--12--12--12--12-12--12-12--12-12-12-12-|
----------------------------------------|


   F#5                                       E                           
   
----------------------------------------||------------------------------|
----------------------------------------||------------------------------|
--11--11--11--11-11--11-11--11-11-11-11-||*--9--9--9--9-9--9-9--9-9-9-9-|
--11--11--11--11-11--11-11--11-11-11-11-||*--9--9--9--9-9--9-9--9-9-9-9-|
---9---9---9---9--9---9--9---9--9--9--9-||---7--7--7--7-7--7-7--7-7-7-7-|
----------------------------------------||------------------------------|


   G#5                                   
   
----------------------------------------|
----------------------------------------|
--13--13--13--13-13--13-13--13-13-13-13-|
--13--13--13--13-13--13-13--13-13-13-13-|
--11--11--11--11-11--11-11--11-11-11-11-|
----------------------------------------|


   A5                                    
   
----------------------------------------|
----------------------------------------|
--14--14--14--14-14--14-14--14-14-14-14-|
--14--14--14--14-14--14-14--14-14-14-14-|
--12--12--12--12-12--12-12--12-12-12-12-|
----------------------------------------|


   F#5                                     E                           
   
----------------------------------------|-----------------------------|
----------------------------------------|-----------------------------|
--11--11--11--11-11--11-11--11-11-11-11-|--9--9--9--9-9--9-9--9-9-9-9-|
--11--11--11--11-11--11-11--11-11-11-11-|--9--9--9--9-9--9-9--9-9-9-9-|
---9---9---9---9--9---9--9---9--9--9--9-|--7--7--7--7-7--7-7--7-7-7-7-|
----------------------------------------|-----------------------------|


   G#5                                   
  
----------------------------------------|
----------------------------------------|
--13--13--13--13-13--13-13--13-13-13-13-|
--13--13--13--13-13--13-13--13-13-13-13-|
--11--11--11--11-11--11-11--11-11-11-11-|
----------------------------------------|


   A5                                    
   
----------------------------------------|
----------------------------------------|
--14--14--14--14-14--14-14--14-14-14-14-|
--14--14--14--14-14--14-14--14-14-14-14-|
--12--12--12--12-12--12-12--12-12-12-12-|
----------------------------------------|


   F#5                                                          
   
----------------------------------------|----------7--------L--|
----------------------------------------|--7-------------------|
--11--11--11--11-11--11-11--11-11-11-11-|--9----9--------------|
--11--11--11--11-11--11-11--11-11-11-11-|--7-------------------|
---9---9---9---9--9---9--9---9--9--9--9-|----------------------|
----------------------------------------|----------------------|


    
----------7--------L--|----------7--------L--|----------7--------L--|
--7-------------------|--7-------------------|--7-------------------|
--9----9--------------|--9----9--------------|--9----9--------------|
--8-------------------|--9-------------------|--9-------------------|
----------------------|----------------------|----------------------|
----------------------|----------------------|----------------------|


   
----------7--------L--|----------7--------L--|----------7--------L--|
--7-------------------|--7-------------------|--7-------------------|
--9----9--------------|--9----9--------------|--9----9--------------|
--7-------------------|--8-------------------|--9-------------------|
----------------------|----------------------|----------------------|
----------------------|----------------------|----------------------|


    
----------7--------L--|--x--x--x--x-7--7-7--7--7--|--x--x--x--x-7--7-7--7--7--|
--7-------------------|--9--9--9--9-9--9-9--9--9--|--9--9--9--9-9--9-9--9--9--|
--9----9--------------|--9--9--9--9-9--9-9--9--9--|--9--9--9--9-9--9-9--9--9--|
--9-------------------|--7--7--7--7-7--7-7--7--7--|--7--7--7--7-7--7-7--7--7--|
----------------------|---------------------------|---------------------------|
----------------------|---------------------------|---------------------------|


   
--x--x--x--x-7--7-7--7--7--|--x--x--x--x-7--7-7--7--7--|
--9--9--9--9-9--9-9--9--9--|--9--9--9--9-9--9-9--9--9--|
--9--9--9--9-9--9-9--9--9--|--9--9--9--9-9--9-9--9--9--|
--7--7--7--7-7--7-7--7--7--|--7--7--7--7-7--7-7--7--7--|
---------------------------|---------------------------|
---------------------------|---------------------------|


    
--x--x--x--x-7--7-7--7--7--|--x--x--x--x-7--7-7--7--7--|
--9--9--9--9-9--9-9--9--9--|--9--9--9--9-9--9-9--9--9--|
--9--9--9--9-9--9-9--9--9--|--9--9--9--9-9--9-9--9--9--|
--7--7--7--7-7--7-7--7--7--|--7--7--7--7-7--7-7--7--7--|
---------------------------|---------------------------|
---------------------------|---------------------------|


  
--x--x--x--x-7--7-7--7--7--|--x--x--x--x-7--7-7--7--7--|
--9--9--9--9-9--9-9--9--9--|--9--9--9--9-9--9-9--9--9--|
--9--9--9--9-9--9-9--9--9--|--9--9--9--9-9--9-9--9--9--|
--7--7--7--7-7--7-7--7--7--|--7--7--7--7-7--7-7--7--7--|
---------------------------|---------------------------|
---------------------------|---------------------------|


     
----------------------------------------|
----------------------------------------|
--14--14--14--14-14--14-14--14-14-14-14-|
---x---x---x---x--x---x--x---x--x--x--x-|
--12--12--12--12-12--12-12--12-12-12-12-|
----------------------------------------|


   
-----------------------------------------|------------------------------------|
-----------------------------------------|------------------------------------|
--13--13--13--13s-11--11-11--11-11-11-11-|--9--9--9--9-11--11-11--11-11-11-11-|
---x---x---x---x---x---x--x---x--x--x--x-|--x--x--x--x--x---x--x---x--x--x--x-|
--11--11--11--11s--9---9--9---9--9--9--9-|--7--7--7--7--9---9--9---9--9--9--9-|
-----------------------------------------|------------------------------------|


   
----------------------------------------|
----------------------------------------|
--12--12--12--12-13--13-13--13-13-13-13-|
---x---x---x---x--x---x--x---x--x--x--x-|
--10--10--10--10-11--11-11--11-11-11-11-|
----------------------------------------|


   
----------------------------------------|
----------------------------------------|
--14--14--14--14-14--14-14--14-14-14-14-|
---x---x---x---x--x---x--x---x--x--x--x-|
--12--12--12--12-12--12-12--12-12-12-12-|
----------------------------------------|


    
-----------------------------------------|---------------------------|
-----------------------------------------|---------------------------|
--13--13--13--13s-11--11-11--11-11-11-11-|--9--9--9--9-9--9-9--9--9--|
---x---x---x---x---x---x--x---x--x--x--x-|--x--x--x--x-x--x-x--x--x--|
--11--11--11--11s--9---9--9---9--9--9--9-|--7--7--7--7-7--7-7--7--7--|
-----------------------------------------|---------------------------|


    
--------------------||---------------------------|--------------------------|
--------------------||---------------------------|--------------------------|
--9----------------*||--9--9--9--9-9--9-9--9--9--|--8--8--8--8-6--6-6--6----|
--x----------------*||--x--x--x--x-x--x-x--x--x--|--x--x--x--x-x--x-x--x----|
--7-----------------||--7--7--7--7-7--7-7--7--7--|--6--6--6--6-4--4-4--4----|
--------------------||---------------------------|--------------------------|


      
---------------------------|---------------------------|
---------------------------|---------------------------|
--4--4--4--4s-6--6-6--6----|--4--4--4--4s-6--6-6--6----|
--x--x--x--x--x--x-x--x----|--x--x--x--x--x--x-x--x----|
--2--2--2--2s-4--4-4--4----|--2--2--2--2s-4--4-4--4----|
---------------------------|---------------------------|


    
-------------------------------|-------------------------------|
-------------------------------|-------------------------------|
--4--4--4--4-/14--14-14--14----|--6--6--6--6-/14--14-14--14----|
--x--x--x--x---x---x--x---x----|--x--x--x--x---x---x--x---x----|
--2--2--2--2-/12--12-12--12----|--4--4--4--4-/12--12-12--12----|
-------------------------------|-------------------------------|


      
-----------------------------|-------------------------|
-----------------------------|-------------------------|
--14--13--11--9----9--8--9s--|--11----9--8-----6--4----|
---x---x---x--x----x--x--x---|---x----x--x-----x--x----|
--12--11---9--7----7--6--7s--|---9----7--6-----4--2----|
-----------------------------|-------------------------|


  
----------7-----------L--|----------7--------L--|----------7--------L--|
--7----------------------|--7-------------------|--7-------------------|
--L----9-----------------|--9----9--------------|--9----9--------------|
--L----------------------|--8-------------------|--9-------------------|
--L----------------------|----------------------|----------------------|
-------------------------|----------------------|----------------------|


   
----------7--------L--|----------7--------L--|----------7--------L--|
--7-------------------|--7-------------------|--7-------------------|
--9----9--------------|--9----9--------------|--9----9--------------|
--9-------------------|--7-------------------|--8-------------------|
----------------------|----------------------|----------------------|
----------------------|----------------------|----------------------|


   
----------7--------L--|----------7--------L--|
--7-------------------|--7-------------------|
--9----9--------------|--9----9--------------|
--9-------------------|--9-------------------|
----------------------|----------------------|
----------------------|----------------------|


   
----------------------------------------|
----------------------------------------|
--14--14--14--14-14--14-14--14-14-14-14-|
---x---x---x---x--x---x--x---x--x--x--x-|
--12--12--12--12-12--12-12--12-12-12-12-|
----------------------------------------|


    
-----------------------------------------|------------------------------------|
-----------------------------------------|------------------------------------|
--13--13--13--13s-11--11-11--11-11-11-11-|--9--9--9--9-11--11-11--11-11-11-11-|
---x---x---x---x---x---x--x---x--x--x--x-|--x--x--x--x--x---x--x---x--x--x--x-|
--11--11--11--11s--9---9--9---9--9--9--9-|--7--7--7--7--9---9--9---9--9--9--9-|
-----------------------------------------|------------------------------------|


   
----------------------------------------|
----------------------------------------|
--12--12--12--12-13--13-13--13-13-13-13-|
---x---x---x---x--x---x--x---x--x--x--x-|
--10--10--10--10-11--11-11--11-11-11-11-|
----------------------------------------|


  
----------------------------------------|
----------------------------------------|
--14--14--14--14-14--14-14--14-14-14-14-|
---x---x---x---x--x---x--x---x--x--x--x-|
--12--12--12--12-12--12-12--12-12-12-12-|
----------------------------------------|


     
-----------------------------------------|------------------------------------|
-----------------------------------------|------------------------------------|
--13--13--13--13s-11--11-11--11-11-11-11-|--9--9--9--9-11--11-11--11-11-11-11-|
---x---x---x---x---x---x--x---x--x--x--x-|--x--x--x--x--x---x--x---x--x--x--x-|
--11--11--11--11s--9---9--9---9--9--9--9-|--7--7--7--7--9---9--9---9--9--9--9-|
-----------------------------------------|------------------------------------|


  
----------------------------------------|
----------------------------------------|
--12--12--12--12-13--13-13--13-13-13-13-|
---x---x---x---x--x---x--x---x--x--x--x-|
--10--10--10--10-11--11-11--11-11-11-11-|
----------------------------------------|


 
----------------------------------------|
----------------------------------------|
--14--14--14--14-14--14-14--14-14-14-14-|
---x---x---x---x--x---x--x---x--x--x--x-|
--12--12--12--12-12--12-12--12-12-12-12-|
----------------------------------------|


     
-----------------------------------------|---------------------------|
-----------------------------------------|---------------------------|
--13--13--13--13s-11--11-11--11-11-11-11-|--9--9--9--9-9--9-9--9--9--|
---x---x---x---x---x---x--x---x--x--x--x-|--x--x--x--x-x--x-x--x--x--|
--11--11--11--11s--9---9--9---9--9--9--9-|--7--7--7--7-7--7-7--7--7--|
-----------------------------------------|---------------------------|


               
-------------------||
-------------------||
--9----------------||
--x----------------||
--7----------------||
-------------------||

Comments

Guest