Members of Supercar, from left to right: Nakamura Koji, Furukawa Miki, Ishiwatari Junji, Tazawa Kodai

Supercar Tabs

Bass Guitar tabs for 「Baby Once More」 by Supercar

Posted by ZeManic
                                Baby Once More                                  

Tabbed by: ZeManic

Tempo = 102



                             H        Q    E  E    
G||-------|-------|-------|-----------------------|
D||-------|-------|-------|-----------------------|
A||-------|-------|-------|-----------------------|
E||-------|-------|-------|-------------------x/--|


   E   E   E   E   E   E   E   E      E   E   E   E   E   E   E   E    
----------------------------------|-----------------------------------|
----------------------------------|-----------------------------------|
----------------------------------|-----------------------------------|
--10--10--10--10--10--10--10--10--|--10--10--10--10--10--10--10--10s--|


  E  E  E  E  E  E  E  E     E  E  E  E  E  E  E  E   
--------------------------|--------------------------|
--------------------------|--------------------------|
--------------------------|--------------------------|
--7--7--7--7--7--7--7--7--|--3--3--3--3--3--3--3--3--|


   E   E   E   E   E   E   E   E      E   E   E   E   E   E   E   E    
----------------------------------|-----------------------------------|
----------------------------------|-----------------------------------|
----------------------------------|-----------------------------------|
--10--10--10--10--10--10--10--10--|--10--10--10--10--10--10--10--10s--|


  E  E  E  E  E  E  E  E     E  E  E  E  E  E  E  E   
--------------------------|--------------------------|
--------------------------|--------------------------|
--------------------------|--------------------------|
--7--7--7--7--7--7--7--7--|--3--3--3--3--3--3--3--3--|


     E   E   E   E   E   E   E   E      E   E   E   E   E   E   E   E    
|-----------------------------------|-----------------------------------|
|*----------------------------------|-----------------------------------|
|*----------------------------------|-----------------------------------|
|---10--10--10--10--10--10--10--10--|--10--10--10--10--10--10--10--10s--|


  E  E  E  E  E  E  E  E     E  E  E  E  E  E  E  E   
--------------------------|--------------------------|
--------------------------|--------------------------|
--------------------------|--------------------------|
--7--7--7--7--7--7--7--7--|--3--3--3--3--3--3--3--3--|


   E   E   E   E   E   E   E   E      E   E   E   E   E   E   E   E    
----------------------------------|-----------------------------------|
----------------------------------|-----------------------------------|
----------------------------------|-----------------------------------|
--10--10--10--10--10--10--10--10--|--10--10--10--10--10--10--10--10s--|


  E  E  E  E  E  E  E  E     E  E  E  E  E  E  E  E     
--------------------------|---------------------------||
--------------------------|--------------------------*||
--------------------------|--------------------------*||
--7--7--7--7--7--7--7--7--|--3--3--3--3--3--3--3--3---||


   E   E   E   E   E   E   E   E      E   E   E   E   E   E   E   E    
----------------------------------|-----------------------------------|
----------------------------------|-----------------------------------|
----------------------------------|-----------------------------------|
--10--10--10--10--10--10--10--10--|--10--10--10--10--10--10--10--10s--|


  E  E  E  E  E  E  E  E     E  E  E  E  E  E  E  E   
--------------------------|--------------------------|
--------------------------|--------------------------|
--------------------------|--------------------------|
--7--7--7--7--7--7--7--7--|--3--3--3--3--3--3--3--3--|


   E   E   E   E   E   E   E   E      E   E   E   E   E   E   E   E    
----------------------------------|-----------------------------------|
----------------------------------|-----------------------------------|
----------------------------------|-----------------------------------|
--10--10--10--10--10--10--10--10--|--10--10--10--10--10--10--10--10s--|


  E  E  E  E  E  E  E  E     E  E  E  E  E  E  E  E     E  E  E  E  E  E  Q     
--------------------------|--------------------------|-------------------------|
--------------------------|--------------------------|-------------------------|
--------------------------|--------------------------|-------------------------|
--7--7--7--7--7--7--7--7--|--3--3--3--3--3--3--3--3--|--5--5-----5-----5-------|


  E  E  E  E  E  E  Q       E  E  E  E  E  E  Q       E  E  E  E  E  E  Q     
-------------------------|-------------------------|-------------------------|
-------------------------|-------------------------|-------------------------|
-------------------------|-------------------------|-------------------------|
--5--5-----5-----5-------|--5--5-----5-----5-------|--5--5-----5-----5-------|


  E  E  E  E  E  E  Q       E  E  E  E  E  E  Q                     
-------------------------|-------------------------|-------|-------|
-------------------------|-------------------------|-------|-------|
-------------------------|-------------------------|-------|-------|
--5--5-----5-----5-------|--5--5-----5-----5-------|-------|-------|


   E   E   E   E   E   E   E   E      E   E   E   E   E   E   E   E    
----------------------------------|-----------------------------------|
----------------------------------|-----------------------------------|
----------------------------------|-----------------------------------|
--10--10--10--10--10--10--10--10--|--10--10--10--10--10--10--10--10s--|


  E  E  E  E  E  E  E  E     E  E  E  E  E  E  E  E   
--------------------------|--------------------------|
--------------------------|--------------------------|
--------------------------|--------------------------|
--7--7--7--7--7--7--7--7--|--3--3--3--3--3--3--3--3--|


   E   E   E   E   E   E   E   E      E   E   E   E   E   E   E   E    
----------------------------------|-----------------------------------|
----------------------------------|-----------------------------------|
----------------------------------|-----------------------------------|
--10--10--10--10--10--10--10--10--|--10--10--10--10--10--10--10--10s--|


  E  E  E  E  E  E  E  E     E  E  E  E  E  E  E  E                           
--------------------------|--------------------------|-----|-----|-----|-----|
--------------------------|--------------------------|-----|-----|-----|-----|
--------------------------|--------------------------|-----|-----|-----|-----|
--7--7--7--7--7--7--7--7--|--3--3--3--3--3--3--3--3--|-----|-----|-----|-----|


                    H        Q    E  E       E   E   E   E   E   E   E   E   
-----|-----|-----|-----------------------|----------------------------------|
-----|-----|-----|-----------------------|----------------------------------|
-----|-----|-----|-----------------------|----------------------------------|
-----|-----|-----|-------------------x/--|--10--10--10--10--10--10--10--10--|


   E   E   E   E   E   E   E   E      E  E  E  E  E  E  E  E   
-----------------------------------|--------------------------|
-----------------------------------|--------------------------|
-----------------------------------|--------------------------|
--10--10--10--10--10--10--10--10s--|--7--7--7--7--7--7--7--7--|


  E  E  E  E  E  E  E  E      E   E   E   E   E   E   E   E   
--------------------------|----------------------------------|
--------------------------|----------------------------------|
--------------------------|----------------------------------|
--3--3--3--3--3--3--3--3--|--10--10--10--10--10--10--10--10--|


   E   E   E   E   E   E   E   E      E  E  E  E  E  E  E  E   
-----------------------------------|--------------------------|
-----------------------------------|--------------------------|
-----------------------------------|--------------------------|
--10--10--10--10--10--10--10--10s--|--7--7--7--7--7--7--7--7--|


  E  E  E  E  E  E  E  E      E   E   E   E   E   E   E   E   
--------------------------|----------------------------------|
--------------------------|----------------------------------|
--------------------------|----------------------------------|
--3--3--3--3--3--3--3--3--|--10--10--10--10--10--10--10--10--|


   E   E   E   E   E   E   E   E      E  E  E  E  E  E  E  E   
-----------------------------------|--------------------------|
-----------------------------------|--------------------------|
-----------------------------------|--------------------------|
--10--10--10--10--10--10--10--10s--|--7--7--7--7--7--7--7--7--|


  E  E  E  E  E  E  E  E      E   E   E   E   E   E   E   E   
--------------------------|----------------------------------|
--------------------------|----------------------------------|
--------------------------|----------------------------------|
--3--3--3--3--3--3--3--3--|--10--10--10--10--10--10--10--10--|


   E   E   E   E   E   E   E   E      E  E  E  E  E  E  E  E   
-----------------------------------|--------------------------|
-----------------------------------|--------------------------|
-----------------------------------|--------------------------|
--10--10--10--10--10--10--10--10s--|--7--7--7--7--7--7--7--7--|


  E  E  E  E  E  E  E  E      E   E   E   E   E   E   E   E   
--------------------------|----------------------------------|
--------------------------|----------------------------------|
--------------------------|----------------------------------|
--3--3--3--3--3--3--3--3--|--10--10--10--10--10--10--10--10--|


   E   E   E   E   E   E   E   E      E  E  E  E  E  E  E  E   
-----------------------------------|--------------------------|
-----------------------------------|--------------------------|
-----------------------------------|--------------------------|
--10--10--10--10--10--10--10--10s--|--7--7--7--7--7--7--7--7--|


  E  E  E  E  E  E  E  E      E   E   E   E   E   E   E   E   
--------------------------|----------------------------------|
--------------------------|----------------------------------|
--------------------------|----------------------------------|
--3--3--3--3--3--3--3--3--|--10--10--10--10--10--10--10--10--|


   E   E   E   E   E   E   E   E      E  E  E  E  E  E  E  E   
-----------------------------------|--------------------------|
-----------------------------------|--------------------------|
-----------------------------------|--------------------------|
--10--10--10--10--10--10--10--10s--|--7--7--7--7--7--7--7--7--|


  E  E  E  E  E  E  E  E      E   E   E   E   E   E   E   E   
--------------------------|----------------------------------|
--------------------------|----------------------------------|
--------------------------|----------------------------------|
--3--3--3--3--3--3--3--3--|--10--10--10--10--10--10--10--10--|


   E   E   E   E   E   E   E   E      E  E  E  E  E  E  E  E   
-----------------------------------|--------------------------|
-----------------------------------|--------------------------|
-----------------------------------|--------------------------|
--10--10--10--10--10--10--10--10s--|--7--7--7--7--7--7--7--7--|


  E  E  E  E  E  E  E  E      E   E   E   E   E   E   E   E   
--------------------------|----------------------------------|
--------------------------|----------------------------------|
--------------------------|----------------------------------|
--3--3--3--3--3--3--3--3--|--10--10--10--10--10--10--10--10--|


   E   E   E   E   E   E   E   E      E  E  E  E  E  E  E  E   
-----------------------------------|--------------------------|
-----------------------------------|--------------------------|
-----------------------------------|--------------------------|
--10--10--10--10--10--10--10--10s--|--7--7--7--7--7--7--7--7--|


  E  E  E  E  E  E  E  E      E   E   E   E   E   E   E   E   
--------------------------|----------------------------------|
--------------------------|----------------------------------|
--------------------------|----------------------------------|
--3--3--3--3--3--3--3--3--|--10--10--10--10--10--10--10--10--|


   E   E   E   E   E   E   E   E      E  E  E  E  E  E  E  E   
-----------------------------------|--------------------------|
-----------------------------------|--------------------------|
-----------------------------------|--------------------------|
--10--10--10--10--10--10--10--10s--|--7--7--7--7--7--7--7--7--|


  E  E  E  E  E  E  E  E      E   E   E   E   E   E   E   E   
--------------------------|----------------------------------|
--------------------------|----------------------------------|
--------------------------|----------------------------------|
--3--3--3--3--3--3--3--3--|--10--10--10--10--10--10--10--10--|


   E   E   E   E   E   E   E   E      E  E  E  E  E  E  E  E   
-----------------------------------|--------------------------|
-----------------------------------|--------------------------|
-----------------------------------|--------------------------|
--10--10--10--10--10--10--10--10s--|--7--7--7--7--7--7--7--7--|


  E  E  E  E  E  E  E  E          
--------------------------|-----||
--------------------------|-----||
--------------------------|-----||
--3--3--3--3--3--3--3--3--|-----||




Duration Legend
---------------
W - whole
H - half
Q - quarter
E - 8th
S - 16th
T - 32nd
X - 64th
. - note dotted
|-n-|  - n-tuplets


Tablature Legend
----------------
L - tied note
x - dead note
g - grace note
(n) - ghost note
> - accentuded note
NH - natural harmonic
AH - artificial harmonic
TH - tapped harmonic
SH - semi harmonic
PH - pitch harmonic
h - hammer on
p - pull off
b - bend
br - bendRelease
pb - preBend
pbr - preBendRelease
brb - bendReleaseBend
\n/ - tremolo bar dip
\n - tremolo bar dive
-/n - tremolo bar Release up
/n\ - tremolo bar inverted dip
/n - tremolo bar return
-\n - tremolo bar Release down
S - shift slide
s - legato slide
/ -  slide into from below or out of upwards
\ -  slide into from above or out of downwards
~ - vibrato
W - wide vibrato
tr - trill
TP - tremolo picking
T - tapping
S - slap
P - pop
< - fade in
^ - brush up
v - brush down

Comments

Guest