Members of Supercar, from left to right: Nakamura Koji, Furukawa Miki, Ishiwatari Junji, Tazawa Kodai

Supercar Tabs

Lead Guitar tabs for 「Baby Once More」 by Supercar

Posted by ZeManic
                                Baby Once More                                  

Tabbed by: ZeManic

Tempo = 102



     E   E   E     Q.       E    E     E   E   E     Q.       E    E   
E||---------------------------------|---------------------------------|
B||-----10---L---(12)------12S--10--|-----10---L---(12)------12S--10--|
G||----------9S---11--------L-------|----------9S---11--------L-------|
D||--0------------------------------|--0------------------------------|
A||---------------------------------|---------------------------------|
E||---------------------------------|---------------------------------|


  E   E   E     Q.       E    E     E   E   E     Q.       E    E   
---------------------------------|---------------------------------|
-----10---L---(12)------12S--10--|-----10---L---(12)------12S--10--|
----------9S---11--------L-------|----------9S---11--------L-------|
--0------------------------------|--0------------------------------|
---------------------------------|---------------------------------|
---------------------------------|---------------------------------|


  E   E   E     Q.       E    E     E   E   E     Q.       E    E   
---------------------------------|---------------------------------|
-----10---L---(12)------12S--10--|-----10---L---(12)------12S--10--|
----------9S---11--------L-------|----------9S---11--------L-------|
--0------------------------------|--0------------------------------|
---------------------------------|---------------------------------|
---------------------------------|---------------------------------|


  E   E   E     Q.       E    E     E   E   E     Q.       E    E   
---------------------------------|---------------------------------|
-----10---L---(12)------12S--10--|-----10---L---(12)------12S--10--|
----------9S---11--------L-------|----------9S---11--------L-------|
--0------------------------------|--0------------------------------|
---------------------------------|---------------------------------|
---------------------------------|---------------------------------|


  E   E   E     Q.       E    E     E   E   E     Q.       E    E   
---------------------------------|---------------------------------|
-----10---L---(12)------12S--10--|-----10---L---(12)------12S--10--|
----------9S---11--------L-------|----------9S---11--------L-------|
--0------------------------------|--0------------------------------|
---------------------------------|---------------------------------|
---------------------------------|---------------------------------|


  E   E   E     Q.       E    E     E   E   E     Q.       E    E   
---------------------------------|---------------------------------|
-----10---L---(12)------12S--10--|-----10---L---(12)------12S--10--|
----------9S---11--------L-------|----------9S---11--------L-------|
--0------------------------------|--0------------------------------|
---------------------------------|---------------------------------|
---------------------------------|---------------------------------|


    E   E   E     Q.       E    E     E   E   E     Q.       E    E   
|----------------------------------|---------------------------------|
|------10---L---(12)------12S--10--|-----10---L---(12)------12S--10--|
|*----------9S---11--------L-------|----------9S---11--------L-------|
|*--0------------------------------|--0------------------------------|
|----------------------------------|---------------------------------|
|----------------------------------|---------------------------------|


  E   E   E     Q.       E    E     E   E   E     Q.       E    E   
---------------------------------|---------------------------------|
-----10---L---(12)------12S--10--|-----10---L---(12)------12S--10--|
----------9S---11--------L-------|----------9S---11--------L-------|
--0------------------------------|--0------------------------------|
---------------------------------|---------------------------------|
---------------------------------|---------------------------------|


  E   E   E     Q.       E    E     E   E   E     Q.       E    E   
---------------------------------|---------------------------------|
-----10---L---(12)------12S--10--|-----10---L---(12)------12S--10--|
----------9S---11--------L-------|----------9S---11--------L-------|
--0------------------------------|--0------------------------------|
---------------------------------|---------------------------------|
---------------------------------|---------------------------------|


  E   E   E     Q.       E    E     E   E   E     Q.       E    E           
---------------------------------|----------------------------------||-----|
-----10---L---(12)------12S--10--|-----10---L---(12)------12S--10---||-----|
----------9S---11--------L-------|----------9S---11--------L-------*||-----|
--0------------------------------|--0------------------------------*||-----|
---------------------------------|----------------------------------||-----|
---------------------------------|----------------------------------||-----|


                                            E  S E  S E  E  E  E  E   
-----|-----|-----|-----|-----|-----|-----|---------------------------|
-----|-----|-----|-----|-----|-----|-----|---------------------------|
-----|-----|-----|-----|-----|-----|-----|---------------------------|
-----|-----|-----|-----|-----|-----|-----|---------------------------|
-----|-----|-----|-----|-----|-----|-----|--0----3----5-----5--3--5--|
-----|-----|-----|-----|-----|-----|-----|---------------------------|


  S E  E  E  E.  Q.        E  S E  S E  E  E  E  E   
------------------------|---------------------------|
------------------------|---------------------------|
------------------------|---------------------------|
--2---------------------|---------------------------|
----5--3--0-------------|--0----3----5-----5--3--5--|
------------------------|---------------------------|


  S E  E  E  E  E  S E  E     E  S E  S E  E  E  E  E   
---------------------------|---------------------------|
---------------------------|---------------------------|
---------------------------|---------------------------|
--2------------------------|---------------------------|
----5--3--0-------------0--|--0----3----5-----5--3--5--|
----------------3--0-3-----|---------------------------|


  S E  E  E  E.  Q.        E  S E  S E  E  E  E  E     S E  E  E  E.  Q.      
------------------------|---------------------------|------------------------|
------------------------|---------------------------|------------------------|
------------------------|---------------------------|------------------------|
--2---------------------|---------------------------|--2---------------------|
----5--3--0-------------|--0----3----5-----5--3--5--|----5--3--0-------------|
------------------------|---------------------------|------------------------|


  E   E   E     Q.       E    E     E   E   E     Q.       E    E   
---------------------------------|---------------------------------|
-----10---L---(12)------12S--10--|-----10---L---(12)------12S--10--|
----------9S---11--------L-------|----------9S---11--------L-------|
--0------------------------------|--0------------------------------|
---------------------------------|---------------------------------|
---------------------------------|---------------------------------|


  E   E   E     Q.       E    E     E   E   E     Q.       E    E   
---------------------------------|---------------------------------|
-----10---L---(12)------12S--10--|-----10---L---(12)------12S--10--|
----------9S---11--------L-------|----------9S---11--------L-------|
--0------------------------------|--0------------------------------|
---------------------------------|---------------------------------|
---------------------------------|---------------------------------|


  E   E   E     Q.       E    E     E   E   E     Q.       E    E   
---------------------------------|---------------------------------|
-----10---L---(12)------12S--10--|-----10---L---(12)------12S--10--|
----------9S---11--------L-------|----------9S---11--------L-------|
--0------------------------------|--0------------------------------|
---------------------------------|---------------------------------|
---------------------------------|---------------------------------|


  E   E   E     Q.       E    E     E   E   E     Q.       E    E   
---------------------------------|---------------------------------|
-----10---L---(12)------12S--10--|-----10---L---(12)------12S--10--|
----------9S---11--------L-------|----------9S---11--------L-------|
--0------------------------------|--0------------------------------|
---------------------------------|---------------------------------|
---------------------------------|---------------------------------|


  E   E   E     Q.       E    E     E   E   E     Q.       E    E   
---------------------------------|---------------------------------|
-----10---L---(12)------12S--10--|-----10---L---(12)------12S--10--|
----------9S---11--------L-------|----------9S---11--------L-------|
--0------------------------------|--0------------------------------|
---------------------------------|---------------------------------|
---------------------------------|---------------------------------|


  E   E   E     Q.       E    E     E   E   E     Q.       E    E   
---------------------------------|---------------------------------|
-----10---L---(12)------12S--10--|-----10---L---(12)------12S--10--|
----------9S---11--------L-------|----------9S---11--------L-------|
--0------------------------------|--0------------------------------|
---------------------------------|---------------------------------|
---------------------------------|---------------------------------|


  E   E   E     Q.       E    E     E   E   E     Q.       E    E   
---------------------------------|---------------------------------|
-----10---L---(12)------12S--10--|-----10---L---(12)------12S--10--|
----------9S---11--------L-------|----------9S---11--------L-------|
--0------------------------------|--0------------------------------|
---------------------------------|---------------------------------|
---------------------------------|---------------------------------|


  E   E   E     Q.       E    E     E   E   E     Q.       E    E   
---------------------------------|---------------------------------|
-----10---L---(12)------12S--10--|-----10---L---(12)------12S--10--|
----------9S---11--------L-------|----------9S---11--------L-------|
--0------------------------------|--0------------------------------|
---------------------------------|---------------------------------|
---------------------------------|---------------------------------|


  E   E   E     Q.       E    E     E   E   E     Q.       E    E   
---------------------------------|---------------------------------|
-----10---L---(12)------12S--10--|-----10---L---(12)------12S--10--|
----------9S---11--------L-------|----------9S---11--------L-------|
--0------------------------------|--0------------------------------|
---------------------------------|---------------------------------|
---------------------------------|---------------------------------|


  E   E   E     Q.       E    E     E   E   E     Q.       E    E   
---------------------------------|---------------------------------|
-----10---L---(12)------12S--10--|-----10---L---(12)------12S--10--|
----------9S---11--------L-------|----------9S---11--------L-------|
--0------------------------------|--0------------------------------|
---------------------------------|---------------------------------|
---------------------------------|---------------------------------|


  E   E   E     Q.       E    E     E   E   E     Q.       E    E   
---------------------------------|---------------------------------|
-----10---L---(12)------12S--10--|-----10---L---(12)------12S--10--|
----------9S---11--------L-------|----------9S---11--------L-------|
--0------------------------------|--0------------------------------|
---------------------------------|---------------------------------|
---------------------------------|---------------------------------|


  E   E   E     Q.       E    E     E   E   E     Q.       E    E   
---------------------------------|---------------------------------|
-----10---L---(12)------12S--10--|-----10---L---(12)------12S--10--|
----------9S---11--------L-------|----------9S---11--------L-------|
--0------------------------------|--0------------------------------|
---------------------------------|---------------------------------|
---------------------------------|---------------------------------|


  E   E   E     Q.       E    E     E   E   E     Q.       E    E   
---------------------------------|---------------------------------|
-----10---L---(12)------12S--10--|-----10---L---(12)------12S--10--|
----------9S---11--------L-------|----------9S---11--------L-------|
--0------------------------------|--0------------------------------|
---------------------------------|---------------------------------|
---------------------------------|---------------------------------|


  E   E   E     Q.       E    E     E   E   E     Q.       E    E   
---------------------------------|---------------------------------|
-----10---L---(12)------12S--10--|-----10---L---(12)------12S--10--|
----------9S---11--------L-------|----------9S---11--------L-------|
--0------------------------------|--0------------------------------|
---------------------------------|---------------------------------|
---------------------------------|---------------------------------|


  E   E   E     Q.       E    E     E   E   E     Q.       E    E   
---------------------------------|---------------------------------|
-----10---L---(12)------12S--10--|-----10---L---(12)------12S--10--|
----------9S---11--------L-------|----------9S---11--------L-------|
--0------------------------------|--0------------------------------|
---------------------------------|---------------------------------|
---------------------------------|---------------------------------|


  E   E   E     Q.       E    E     E   E   E     Q.       E    E   
---------------------------------|---------------------------------|
-----10---L---(12)------12S--10--|-----10---L---(12)------12S--10--|
----------9S---11--------L-------|----------9S---11--------L-------|
--0------------------------------|--0------------------------------|
---------------------------------|---------------------------------|
---------------------------------|---------------------------------|


  E   E   E     Q.       E    E     E   E   E     Q.       E    E   
---------------------------------|---------------------------------|
-----10---L---(12)------12S--10--|-----10---L---(12)------12S--10--|
----------9S---11--------L-------|----------9S---11--------L-------|
--0------------------------------|--0------------------------------|
---------------------------------|---------------------------------|
---------------------------------|---------------------------------|


  E   E   E     Q.       E    E     E   E   E     Q.       E    E   
---------------------------------|---------------------------------|
-----10---L---(12)------12S--10--|-----10---L---(12)------12S--10--|
----------9S---11--------L-------|----------9S---11--------L-------|
--0------------------------------|--0------------------------------|
---------------------------------|---------------------------------|
---------------------------------|---------------------------------|


  E   E   E     Q.       E    E     E   E   E     Q.       E    E   
---------------------------------|---------------------------------|
-----10---L---(12)------12S--10--|-----10---L---(12)------12S--10--|
----------9S---11--------L-------|----------9S---11--------L-------|
--0------------------------------|--0------------------------------|
---------------------------------|---------------------------------|
---------------------------------|---------------------------------|


  E   E   E     Q.       E    E     E   E   E     Q.       E    E   
---------------------------------|---------------------------------|
-----10---L---(12)------12S--10--|-----10---L---(12)------12S--10--|
----------9S---11--------L-------|----------9S---11--------L-------|
--0------------------------------|--0------------------------------|
---------------------------------|---------------------------------|
---------------------------------|---------------------------------|


  E   E   E     Q.       E    E     E   E   E     Q.       E    E   
---------------------------------|---------------------------------|
-----10---L---(12)------12S--10--|-----10---L---(12)------12S--10--|
----------9S---11--------L-------|----------9S---11--------L-------|
--0------------------------------|--0------------------------------|
---------------------------------|---------------------------------|
---------------------------------|---------------------------------|


  E   E   E     Q.       E    E     E   E   E     Q.       E    E   
---------------------------------|---------------------------------|
-----10---L---(12)------12S--10--|-----10---L---(12)------12S--10--|
----------9S---11--------L-------|----------9S---11--------L-------|
--0------------------------------|--0------------------------------|
---------------------------------|---------------------------------|
---------------------------------|---------------------------------|


  E   E   E     Q.       E    E     E   E   E     Q.       E    E   
---------------------------------|---------------------------------|
-----10---L---(12)------12S--10--|-----10---L---(12)------12S--10--|
----------9S---11--------L-------|----------9S---11--------L-------|
--0------------------------------|--0------------------------------|
---------------------------------|---------------------------------|
---------------------------------|---------------------------------|


  E   E   E     Q.       E    E     E   E   E     Q.       E    E   
---------------------------------|---------------------------------|
-----10---L---(12)------12S--10--|-----10---L---(12)------12S--10--|
----------9S---11--------L-------|----------9S---11--------L-------|
--0------------------------------|--0------------------------------|
---------------------------------|---------------------------------|
---------------------------------|---------------------------------|


  E   E   E     Q.       E    E     E   E   E     Q.       E    E   
---------------------------------|---------------------------------|
-----10---L---(12)------12S--10--|-----10---L---(12)------12S--10--|
----------9S---11--------L-------|----------9S---11--------L-------|
--0------------------------------|--0------------------------------|
---------------------------------|---------------------------------|
---------------------------------|---------------------------------|


  E   E   E     Q.       E    E     E   E   E     Q.       E    E   
---------------------------------|---------------------------------|
-----10---L---(12)------12S--10--|-----10---L---(12)------12S--10--|
----------9S---11--------L-------|----------9S---11--------L-------|
--0------------------------------|--0------------------------------|
---------------------------------|---------------------------------|
---------------------------------|---------------------------------|


  E   E   E     Q.       E    E     E   E   E     Q.       E    E   
---------------------------------|---------------------------------|
-----10---L---(12)------12S--10--|-----10---L---(12)------12S--10--|
----------9S---11--------L-------|----------9S---11--------L-------|
--0------------------------------|--0------------------------------|
---------------------------------|---------------------------------|
---------------------------------|---------------------------------|


  E   E   E     Q.       E    E     E   E   E     Q.       E    E          
---------------------------------|---------------------------------|-----||
-----10---L---(12)------12S--10--|-----10---L---(12)------12S--10--|-----||
----------9S---11--------L-------|----------9S---11--------L-------|-----||
--0------------------------------|--0------------------------------|-----||
---------------------------------|---------------------------------|-----||
---------------------------------|---------------------------------|-----||




Duration Legend
---------------
W - whole
H - half
Q - quarter
E - 8th
S - 16th
T - 32nd
X - 64th
. - note dotted
|-n-|  - n-tuplets


Tablature Legend
----------------
L - tied note
x - dead note
g - grace note
(n) - ghost note
> - accentuded note
NH - natural harmonic
AH - artificial harmonic
TH - tapped harmonic
SH - semi harmonic
PH - pitch harmonic
h - hammer on
p - pull off
b - bend
br - bendRelease
pb - preBend
pbr - preBendRelease
brb - bendReleaseBend
\n/ - tremolo bar dip
\n - tremolo bar dive
-/n - tremolo bar Release up
/n\ - tremolo bar inverted dip
/n - tremolo bar return
-\n - tremolo bar Release down
S - shift slide
s - legato slide
/ -  slide into from below or out of upwards
\ -  slide into from above or out of downwards
~ - vibrato
W - wide vibrato
tr - trill
TP - tremolo picking
T - tapping
S - slap
P - pop
< - fade in
^ - brush up
v - brush down

Comments

Guest