Members of Supercar, from left to right: Nakamura Koji, Furukawa Miki, Ishiwatari Junji, Tazawa Kodai

Supercar Tabs

Rhythm Guitar tabs for 「Baby Once More」 by Supercar

Posted by ZeManic
                                Baby Once More                                  

Tabbed by: ZeManic

Tempo = 102



E||-------|-------|-------|-------|-------|-------|-------|-------|-------|
B||-------|-------|-------|-------|-------|-------|-------|-------|-------|
G||-------|-------|-------|-------|-------|-------|-------|-------|-------|
D||-------|-------|-------|-------|-------|-------|-------|-------|-------|
A||-------|-------|-------|-------|-------|-------|-------|-------|-------|
E||-------|-------|-------|-------|-------|-------|-------|-------|-------|


-------|-------|-------||--------|-------|-------|-------|-------|-------|
-------|-------|-------||--------|-------|-------|-------|-------|-------|
-------|-------|-------||*-------|-------|-------|-------|-------|-------|
-------|-------|-------||*-------|-------|-------|-------|-------|-------|
-------|-------|-------||--------|-------|-------|-------|-------|-------|
-------|-------|-------||--------|-------|-------|-------|-------|-------|


-------|--------||-------|-------|-------|-------|-------|-------|-------|
-------|--------||-------|-------|-------|-------|-------|-------|-------|
-------|-------*||-------|-------|-------|-------|-------|-------|-------|
-------|-------*||-------|-------|-------|-------|-------|-------|-------|
-------|--------||-------|-------|-------|-------|-------|-------|-------|
-------|--------||-------|-------|-------|-------|-------|-------|-------|


                    ^                                                         
  H        Q    E.  S     Q    Q    Q    Q       Q    Q    E  Q.              
--------------------2~-|--L----L----L----L----|--L----L----L---------|-------|
--------------------3~-|--L----L----L----L----|--L----L----L---------|-------|
--------------------2~-|--L----L----L----L----|--L----L----L---------|-------|
--------------------0~-|--L----L----L----L----|--L----L----L---------|-------|
-----------------------|----------------------|----------------------|-------|
-----------------------|----------------------|----------------------|-------|


                                           W                 
-------|-------|-------|-------|-------|--12----------------|
-------|-------|-------|-------|-------|--------------------|
-------|-------|-------|-------|-------|--------------------|
-------|-------|-------|-------|-------|--------------------|
-------|-------|-------|-------|-------|--------------------|
-------|-------|-------|-------|-------|--------------------|


   H.            Q         W                    Q     Q    H         
---L------------12s----|--14----------------|--12\------------------|
-----------------------|--------------------|--12-------------------|
-----------------------|--------------------|-----------------------|
-----------------------|--------------------|-----------------------|
-----------------------|--------------------|-----------------------|
-----------------------|--------------------|-----------------------|


   W                    H.            Q         W                 
--12----------------|---L------------12s----|--14----------------|
--------------------|-----------------------|--------------------|
--------------------|-----------------------|--------------------|
--------------------|-----------------------|--------------------|
--------------------|-----------------------|--------------------|
--------------------|-----------------------|--------------------|


   Q     Q    H                                                         
--12\------------------|-----------|-----------|-----------|-----------|
--12-------------------|-----------|-----------|-----------|-----------|
-----------------------|-----------|-----------|-----------|-----------|
-----------------------|-----------|-----------|-----------|-----------|
-----------------------|-----------|-----------|-----------|-----------|
-----------------------|-----------|-----------|-----------|-----------|


                                                  v  ^ ^  ^ v    ^    v  ^ v  
                                                  E  S E  S E  S E  S E  S S  
-----------|-----------|-----------|-----------|-----------------------------|
-----------|-----------|-----------|-----------|--7--x-7--L-7--x-7--x-7--7-7-|
-----------|-----------|-----------|-----------|--7--x-7--L-7--x-7--x-7--7-7-|
-----------|-----------|-----------|-----------|-----------------------------|
-----------|-----------|-----------|-----------|-----------------------------|
-----------|-----------|-----------|-----------|-----------------------------|


  v  ^ ^  ^ v    ^    v  ^ v    v  ^ ^  ^ v    ^    v  ^ v  
  E  S E  S E  S E  S E  S S    E  S E  S E  S E  S E  S S  
-----------------------------|-----------------------------|
--7--x-7--L-7--x-7--x-7--7-7-|--7--x-7--L-7--x-7--x-7--7-7-|
--7--x-7--L-7--x-7--x-7--7-7-|--7--x-7--L-7--x-7--x-7--7-7-|
-----------------------------|-----------------------------|
-----------------------------|-----------------------------|
-----------------------------|-----------------------------|


  v  ^ ^  ^ v    ^    v  ^ v    v  ^ ^  ^ v    ^    v  ^ v  
  E  S E  S E  S E  S E  S S    E  S E  S E  S E  S E  S S  
-----------------------------|-----------------------------|
--7--x-7--L-8--x-7--x-7--7-7-|--7--x-7--L-7--x-7--x-7--7-7-|
--7--x-7--L-7--x-7--x-7--7-7-|--7--x-7--L-7--x-7--x-7--7-7-|
-----------------------------|-----------------------------|
-----------------------------|-----------------------------|
-----------------------------|-----------------------------|


  v  ^ ^  ^ v    ^    v  ^ v    v  ^ ^  ^ v    ^    v  ^ v  
  E  S E  S E  S E  S E  S S    E  S E  S E  S E  S E  S S  
-----------------------------|-----------------------------|
--7--x-7--L-7--x-7--x-7--7-7-|--7--x-7--L-7--x-7--x-7--7-8-|
--7--x-7--L-7--x-7--x-7--7-7-|--7--x-7--L-7--x-7--x-7--7-7-|
-----------------------------|-----------------------------|
-----------------------------|-----------------------------|
-----------------------------|-----------------------------|


  v    ^  v                              v  ^ ^  ^ v    ^    v  ^ v  
  E  S E  S   S  S  S  S  S  E   E  S    E  S E  S E  S E  S E  S S  
--------------------------------------|-----------------------------|
--L--x-7--Ls-12-12-12-12-12-12--10--x-|--7--x-7--L-7--x-7--x-7--7-7-|
--L--x-7--Ls-11-11-11-11-11-11---9--x-|--7--x-7--L-7--x-7--x-7--7-7-|
--------------------------------------|-----------------------------|
--------------------------------------|-----------------------------|
--------------------------------------|-----------------------------|


  v  ^ ^  ^ v    ^    v  ^ v    v  ^ ^  ^ v    ^    v  ^ v  
  E  S E  S E  S E  S E  S S    E  S E  S E  S E  S E  S S  
-----------------------------|-----------------------------|
--7--x-7--L-7--x-7--x-7--7-7-|--7--x-7--L-7--x-7--x-7--7-7-|
--7--x-7--L-7--x-7--x-7--7-7-|--7--x-7--L-7--x-7--x-7--7-7-|
-----------------------------|-----------------------------|
-----------------------------|-----------------------------|
-----------------------------|-----------------------------|


  v  ^ ^  ^ v    ^    v  ^ v    v  ^ ^  ^ v    ^    v  ^ v  
  E  S E  S E  S E  S E  S S    E  S E  S E  S E  S E  S S  
-----------------------------|-----------------------------|
--7--x-7--L-7--x-7--x-7--7-7-|--7--x-7--L-7--x-7--x-7--7-8-|
--7--x-7--L-7--x-7--x-7--7-7-|--7--x-7--L-7--x-7--x-7--7-7-|
-----------------------------|-----------------------------|
-----------------------------|-----------------------------|
-----------------------------|-----------------------------|


  v    ^  v                              v  ^ ^  ^ v    ^    v  ^ v  
  E  S E  S   S  S  S  S  S  E   E  S    E  S E  S E  S E  S E  S S  
--------------------------------------|-----------------------------|
--L--x-7--Ls-12-12-12-12-12-12--10--x-|--7--x-7--L-7--x-7--x-7--7-7-|
--L--x-7--Ls-11-11-11-11-11-11---9--x-|--7--x-7--L-7--x-7--x-7--7-7-|
--------------------------------------|-----------------------------|
--------------------------------------|-----------------------------|
--------------------------------------|-----------------------------|


  v  ^ ^  ^ v    ^    v  ^ v    v  ^ ^  ^ v    ^    v  ^ v  
  E  S E  S E  S E  S E  S S    E  S E  S E  S E  S E  S S  
-----------------------------|-----------------------------|
--7--x-7--L-7--x-7--x-7--7-7-|--7--x-7--L-7--x-7--x-7--7-7-|
--7--x-7--L-7--x-7--x-7--7-7-|--7--x-7--L-7--x-7--x-7--7-7-|
-----------------------------|-----------------------------|
-----------------------------|-----------------------------|
-----------------------------|-----------------------------|


  v  ^ ^  ^ v    ^    v  ^ v    v  ^ ^  ^ v    ^    v  ^ v  
  E  S E  S E  S E  S E  S S    E  S E  S E  S E  S E  S S  
-----------------------------|-----------------------------|
--7--x-7--L-7--x-7--x-7--7-7-|--7--x-7--L-7--x-7--x-7--7-7-|
--7--x-7--L-7--x-7--x-7--7-7-|--7--x-7--L-7--x-7--x-7--7-7-|
-----------------------------|-----------------------------|
-----------------------------|-----------------------------|
-----------------------------|-----------------------------|


  v  ^ ^  ^ v    ^    v  ^ v    v  ^ ^  ^ v    ^    v  ^ v  
  E  S E  S E  S E  S E  S S    E  S E  S E  S E  S E  S S  
-----------------------------|-----------------------------|
--7--x-7--L-7--x-7--x-7--7-7-|--7--x-7--L-7--x-7--x-7--7-7-|
--7--x-7--L-7--x-7--x-7--7-7-|--7--x-7--L-7--x-7--x-7--7-7-|
-----------------------------|-----------------------------|
-----------------------------|-----------------------------|
-----------------------------|-----------------------------|


  v  ^ ^  ^ v    ^    v  ^ v    v    ^  ^ v    ^    v ^ v   
  E  S E  S E  S E  S E  S S    E  S E  S S E  E  S S S E   
-----------------------------|-----------------------------|
--7--x-7--L-7--x-7--x-7--7-7-|--7--x-7--L-7-x--7--x-7-7-8--|
--7--x-7--L-7--x-7--x-7--7-7-|--7--x-7--L-7-x--7--x-7-7-7--|
-----------------------------|-----------------------------|
-----------------------------|-----------------------------|
-----------------------------|-----------------------------|


  v    ^  v                              v  ^ ^  ^ v    ^    v  ^ v  
  E  S E  S   S  S  S  S  S  E   E  S    E  S E  S E  S E  S E  S S  
--------------------------------------|-----------------------------|
--L--x-7--Ls-12-12-12-12-12-12--10--x-|--7--x-7--L-7--x-7--x-7--7-7-|
--L--x-7--Ls-11-11-11-11-11-11---9--x-|--7--x-7--L-7--x-7--x-7--7-7-|
--------------------------------------|-----------------------------|
--------------------------------------|-----------------------------|
--------------------------------------|-----------------------------|


  v  ^ ^  ^ v    ^    v  ^ v    v  ^ ^  ^ v    ^    v  ^ v  
  E  S E  S E  S E  S E  S S    E  S E  S E  S E  S E  S S  
-----------------------------|-----------------------------|
--7--x-7--L-7--x-7--x-7--7-7-|--7--x-7--L-7--x-7--x-7--7-7-|
--7--x-7--L-7--x-7--x-7--7-7-|--7--x-7--L-7--x-7--x-7--7-7-|
-----------------------------|-----------------------------|
-----------------------------|-----------------------------|
-----------------------------|-----------------------------|


  v  ^ ^  ^ v    ^    v  ^ v    v  ^ ^  ^ v    ^    v  ^ v  
  E  S E  S E  S E  S E  S S    E  S E  S E  S E  S E  S S  
-----------------------------|-----------------------------|
--7--x-7--L-7--x-7--x-7--7-7-|--7--x-7--L-7--x-7--x-7--7-7-|
--7--x-7--L-7--x-7--x-7--7-7-|--7--x-7--L-7--x-7--x-7--7-7-|
-----------------------------|-----------------------------|
-----------------------------|-----------------------------|
-----------------------------|-----------------------------|


  v  ^ ^  ^ v    ^    v  ^ v    v    ^  ^ v    ^    v ^ v   
  E  S E  S E  S E  S E  S S    E  S E  S S E  E  S S S E   
-----------------------------|-----------------------------|
--7--x-7--L-7--x-7--x-7--7-7-|--7--x-7--L-7-x--7--x-7-7-8--|
--7--x-7--L-7--x-7--x-7--7-7-|--7--x-7--L-7-x--7--x-7-7-7--|
-----------------------------|-----------------------------|
-----------------------------|-----------------------------|
-----------------------------|-----------------------------|


  v    ^  v                              v  ^ ^  ^ v    ^    v  ^    
  E  S E  S   S  S  S  S  S  E   E  S    E  S E  S E  S E  S E  S S  
--------------------------------------|-----------------------------|
--L--x-7--Ls-12-12-12-12-12-12--10--x-|--7--x-7--L-7--x-7--x-7--L---|
--L--x-7--Ls-11-11-11-11-11-11---9--x-|--7--x-7--L-7--x-7--x-7--L---|
--------------------------------------|-----------------------------|
--------------------------------------|-----------------------------|
--------------------------------------|-----------------------------|


  v  ^ ^  ^ v    ^    v  ^      v  ^ ^  ^ v    ^    v  ^    
  E  S E  S E  S E  S E  S S    E  S E  S E  S E  S E  S S  
-----------------------------|-----------------------------|
--7--x-7--L-7--x-7--x-7--L---|--7--x-7--L-7--x-7--x-7--L---|
--7--x-7--L-7--x-7--x-7--L---|--7--x-7--L-7--x-7--x-7--L---|
-----------------------------|-----------------------------|
-----------------------------|-----------------------------|
-----------------------------|-----------------------------|


  v  ^ ^  ^ v    ^    v  ^       v  ^ ^    v     ^    v ^ v    
  E  S E  S E  S E  S E  S S     E  S E  S E  S  E  S S S S S  
-----------------------------|--10----9----7----------7-7-7---|
--7--x-7--L-7--x-7--x-7--L---|---7--x-7--x-7--x-10--x-7-7-7---|
--7--x-7--L-7--x-7--x-7--L---|---7--x-7--x-7--x--7--x-7-7-7---|
-----------------------------|--------------------------------|
-----------------------------|--------------------------------|
-----------------------------|--------------------------------|


  v  ^ ^  ^ v    ^    v  ^      v  ^ ^  ^ v    ^    v  ^    
  E  S E  S E  S E  S E  S S    E  S E  S E  S E  S E  S S  
-----------------------------|-----------------------------|
--7--x-7--L-7--x-7--x-7--L---|--7--x-7--L-7--x-7--x-7--L---|
--7--x-7--L-7--x-7--x-7--L---|--7--x-7--L-7--x-7--x-7--L---|
-----------------------------|-----------------------------|
-----------------------------|-----------------------------|
-----------------------------|-----------------------------|


  v  ^ ^  ^ v    ^    v  ^          
  E  S E  S E  S E  S E  S S        
-----------------------------|----||
--7--x-7--L-7--x-7--x-7--L---|----||
--7--x-7--L-7--x-7--x-7--L---|----||
-----------------------------|----||
-----------------------------|----||
-----------------------------|----||




Duration Legend
---------------
W - whole
H - half
Q - quarter
E - 8th
S - 16th
T - 32nd
X - 64th
. - note dotted
|-n-|  - n-tuplets


Tablature Legend
----------------
L - tied note
x - dead note
g - grace note
(n) - ghost note
> - accentuded note
NH - natural harmonic
AH - artificial harmonic
TH - tapped harmonic
SH - semi harmonic
PH - pitch harmonic
h - hammer on
p - pull off
b - bend
br - bendRelease
pb - preBend
pbr - preBendRelease
brb - bendReleaseBend
\n/ - tremolo bar dip
\n - tremolo bar dive
-/n - tremolo bar Release up
/n\ - tremolo bar inverted dip
/n - tremolo bar return
-\n - tremolo bar Release down
S - shift slide
s - legato slide
/ -  slide into from below or out of upwards
\ -  slide into from above or out of downwards
~ - vibrato
W - wide vibrato
tr - trill
TP - tremolo picking
T - tapping
S - slap
P - pop
< - fade in
^ - brush up
v - brush down

Comments

Guest