Members of Supercar, from left to right: Nakamura Koji, Furukawa Miki, Ishiwatari Junji, Tazawa Kodai

Supercar Tabs

Bass Guitar tabs for 「Harmony」 by Supercar

Posted by ZeManic
                                    Harmony                                     

Tabbed by:

This was originally on gp5 and the credit for tabbing this is unknown, but if you have 
questions, just let me know.

Tempo = 157



        
G||--------------0-----------|-----0-----0--------------|
D||--0--4--4--0-----0--0--4--|--0-----4-----4--0--0--4--|
A||--------------------------|--------------------------|
E||--------------------------|--------------------------|


     
-----0-----0--------------|-----0-----0--------------|
--0-----4-----4--0--0--4--|--0-----4-----4--0--0--4--|
--------------------------|--------------------------|
--------------------------|--------------------------|


   
-----0-----0--------------|-----0-----0--------------|
--0-----4-----4--0--0--4--|--0-----4-----4--0--0--4--|
--------------------------|--------------------------|
--------------------------|--------------------------|


   
-----0-----0--------------|-----0-----0--------------|
--0-----4-----4--0--0--4--|--0-----4-----4--0--0--4--|
--------------------------|--------------------------|
--------------------------|--------------------------|


  
-----0-----0--------------|-----0-----0--------------|
--0-----4-----4--0--0--4--|--0-----4-----4--0--0--4--|
--------------------------|--------------------------|
--------------------------|--------------------------|


   
-----0-----0--------------|-----0-----0--------------|
--0-----4-----4--0--0--4--|--0-----4-----4--0--0--4--|
--------------------------|--------------------------|
--------------------------|--------------------------|


   
-----0-----0--------------|-----0-----0--------------|
--0-----4-----4--0--0--4--|--0-----4-----4--0--0--4--|
--------------------------|--------------------------|
--------------------------|--------------------------|


 
-----0-----0--------------|-----0-----0--------------|
--0-----4-----4--0--0--4--|--0-----4-----4--0--0--4--|
--------------------------|--------------------------|
--------------------------|--------------------------|


  
-----0-----0--------------|-----0-----0--------------|
--0-----4-----4--0--0--4--|--0-----4-----4--0--0--4--|
--------------------------|--------------------------|
--------------------------|--------------------------|


    
-----0-----0--------------|-----0-----0--------------|
--0-----4-----4--0--0--4--|--0-----4-----4--0--0--4--|
--------------------------|--------------------------|
--------------------------|--------------------------|


     
-----0-----0--------------|-----0-----0--------------|
--0-----4-----4--0--0--4--|--0-----4-----4--0--0--4--|
--------------------------|--------------------------|
--------------------------|--------------------------|


    
-----0-----0--------------|-----0-----0--------------|
--0-----4-----4--0--0--4--|--0-----4-----4--0--0--4--|
--------------------------|--------------------------|
--------------------------|--------------------------|


   
-----0-----0--------------|-----0-----0--------------|
--0-----4-----4--0--0--4--|--0-----4-----4--0--0--4--|
--------------------------|--------------------------|
--------------------------|--------------------------|


    
-----0-----0--------------|-----0-----0--------------|
--0-----4-----4--0--0--4--|--0-----4-----4--0--0--4--|
--------------------------|--------------------------|
--------------------------|--------------------------|


   
-----0-----0--------------|-----0-----0--------------|
--0-----4-----4--0--0--4--|--0-----4-----4--0--0--4--|
--------------------------|--------------------------|
--------------------------|--------------------------|


    
-----0-----0--------------|-----0-----0--------------|
--0-----4-----4--0--0--4--|--0-----4-----4--0--0--4--|
--------------------------|--------------------------|
--------------------------|--------------------------|


  
--0--------0--0-----------|--0--------0--0-----------|
-----0-----------0--0--4--|--5--0-----5--5--0--0--4--|
--------------------------|--------------------------|
--------------------------|--------------------------|


   
--0--------0--0-----------|-----0-----0--------2-----|
--5--0-----5--5--0--0--4--|--0-----4-----4--0-----4--|
--------------------------|--------------------------|
--------------------------|--------------------------|


   
-----0-----0--------------|-----0-----0--------------|
--0-----4-----4--0--0--4--|--0-----4-----4--0--0--4--|
--------------------------|--------------------------|
--------------------------|--------------------------|


    
-----0-----0--------------|-----0-----0--------2-----|
--0-----4-----4--0--0--4--|--0-----4-----4--0-----4--|
--------------------------|--------------------------|
--------------------------|--------------------------|


   
-----0-----0--------------|-----0-----0--------------|
--0-----4-----4--0--0--4--|--0-----4-----4--0--0--4--|
--------------------------|--------------------------|
--------------------------|--------------------------|


    
-----0-----0--------------|-----0-----0--------------|
--0-----4-----4--0--0--4--|--0-----4-----4--0--0--4--|
--------------------------|--------------------------|
--------------------------|--------------------------|


   
-----0-----0--------0-----|-----0-----0--------------|
--0-----4-----4--0-----4--|--0-----4-----4--0--0--4--|
--------------------------|--------------------------|
--------------------------|--------------------------|


  
-----0-----0--------------|-----0-----0--------------|
--0-----4-----4--0--0--4--|--0-----4-----4--0--0--4--|
--------------------------|--------------------------|
--------------------------|--------------------------|


   
-----0-----0--------------|-----0-----0--------------|
--0-----4-----4--0--0--4--|--0-----4-----4--0--0--4--|
--------------------------|--------------------------|
--------------------------|--------------------------|


   
-----0-----0--------------|-----0-----0--------------|
--0-----4-----4--0--0--4--|--0-----4-----4--0--0--4--|
--------------------------|--------------------------|
--------------------------|--------------------------|


   
-----0-----0--------------|-----0-----0--------------|
--0-----4-----4--0--0--4--|--0-----4-----4--0--0--4--|
--------------------------|--------------------------|
--------------------------|--------------------------|


  
-----0-----0--------------|-----0-----0--------------|
--0-----4-----4--0--0--4--|--0-----4-----4--0--0--4--|
--------------------------|--------------------------|
--------------------------|--------------------------|


    
-----0-----0--------------|-----0-----0--------------|
--0-----4-----4--0--0--4--|--0-----4-----4--0--0--4--|
--------------------------|--------------------------|
--------------------------|--------------------------|


   
-----0-----0--------------|-----0-----0--------------|
--0-----4-----4--0--0--4--|--0-----4-----4--0--0--4--|
--------------------------|--------------------------|
--------------------------|--------------------------|


   
-----0-----0--------------|-----0-----0--------------|
--0-----4-----4--0--0--4--|--0-----4-----4--0--0--4--|
--------------------------|--------------------------|
--------------------------|--------------------------|


                        
-----0-----0--------------|-----0-----0--------------|-----|-----|-----|-----|
--0-----4-----4--0--0--4--|--0-----4-----4--0--0--4--|-----|-----|-----|-----|
--------------------------|--------------------------|-----|-----|-----|-----|
--------------------------|--------------------------|-----|-----|-----|-----|


-----||
-----||
-----||
-----||

Tablature Legend
----------------
L - tied note
x - dead note
g - grace note
(n) - ghost note
> - accentuded note
NH - natural harmonic
AH - artificial harmonic
TH - tapped harmonic
SH - semi harmonic
PH - pitch harmonic
h - hammer on
p - pull off
b - bend
br - bendRelease
pb - preBend
pbr - preBendRelease
brb - bendReleaseBend
\n/ - tremolo bar dip
\n - tremolo bar dive
-/n - tremolo bar Release up
/n\ - tremolo bar inverted dip
/n - tremolo bar return
-\n - tremolo bar Release down
S - shift slide
s - legato slide
/ -  slide into from below or out of upwards
\ -  slide into from above or out of downwards
~ - vibrato
W - wide vibrato
tr - trill
TP - tremolo picking
T - tapping
S - slap
P - pop
< - fade in
^ - brush up
v - brush down

Comments

Guest