Members of Supercar, from left to right: Nakamura Koji, Furukawa Miki, Ishiwatari Junji, Tazawa Kodai

Supercar Tabs

Lead Guitar tabs for 「Harmony」 by Supercar

Posted by ZeManic
                                    Harmony                                     

Tabbed by:

This was originally on gp5 and the credit for tabbing this is unknown, but if you have 
questions, just let me know.

Tempo = 157


      v             v     v                    v     v     
E||--12---------L--12-----9--|---L---------L---9-----0--|
B||--10---------L--10----10--|---L---------L--10----10--|
G||--11---------L--11-----9--|-------------L---9-----9--|
D||---0---------L---0-----0--|---L---------L---0-----x--|
A||--------------------------|--------------------------|
E||--------------------------|--------------------------|


                                                  v             v          
---L---------L-----------|--------------------|--12---------L--12-----9--|
---L---------L-----------|--10----------------|--10---------L--10----10--|
---L---------L--------6--|--------------------|--11---------L--11-----9--|
---L---------L-----7-----|--------------------|---0---------L---0-----0--|
----------------9--------|--------------------|--------------------------|
-------------------------|--------------------|--------------------------|


                 v     v                                                                           
---L---------L---9-----0--|---L---------L-----------|--------------------|-----|
---L---------L--10----10--|---L---------L-----------|--10----------------|-----|
-------------L---9-----9--|---L---------L--------6--|--------------------|-----|
---L---------L---0-----x--|---L---------L-----7-----|--------------------|-----|
--------------------------|----------------9--------|--------------------|-----|
--------------------------|-------------------------|--------------------|-----|


    
-----------------12----9--|--L----------------|------------------------|
-------------10-----------|-------------------|------------------10----|
---------11---------------|-------------------|---------------7--------|
--------------------------|-------------------|------------7-----------|
--------------------------|-------------------|---------9--------------|
--------------------------|-------------------|------------------------|


              
-------------------|-----------------12----9--|--L----------------|
--L----------------|-------------10-----------|-------------------|
-------------------|---------11---------------|-------------------|
-------------------|--------------------------|-------------------|
-------------------|--------------------------|-------------------|
-------------------|--------------------------|-------------------|


     
-----------------------------|------------------------|-----------------------|
---------10S--12--10---------|------------------------|-----------------------|
----------------------11--9--|-------9----9--7----6s--|--7--6--7--------------|
-----------------------------|------------------------|-----------------------|
-----------------------------|--9---------------------|-----------7----9------|
-----------------------------|------------------------|-----------------------|


   
------------------------|-----------------------|------------------------|
------------------------|-----------------------|------------------------|
-------9----9--7----6s--|--7--6--7--------------|-------9----9--7----6s--|
------------------------|-----------------------|------------------------|
--9---------------------|-----------7----9------|--9---------------------|
------------------------|-----------------------|------------------------|


    
-----------------------|------------------------|-----------------------|
-----------------------|------------------------|-----------------------|
--7--6--7--------------|-------9----9--7----6s--|--7--6--7--------------|
-----------------------|------------------------|-----------------------|
-----------7----9------|--9---------------------|-----------7----9------|
-----------------------|------------------------|-----------------------|


  
------------------------|-----------------------|------------------------|
------------------------|-----------------------|------------------------|
-------9----9--7----6s--|--7--6--7--------------|-------9----9--7----6s--|
------------------------|-----------------------|------------------------|
--9---------------------|-----------7----9------|--9---------------------|
------------------------|-----------------------|------------------------|


     
-----------------------|------------------------|-----------------------|
-----------------------|------------------------|-----------------------|
--7--6--7--------------|-------9----9--7----6s--|--7--6--7--------------|
-----------------------|------------------------|-----------------------|
-----------7----9------|--9---------------------|-----------7----9------|
-----------------------|------------------------|-----------------------|


                                  
------------------------|-----------------------|---------|---------|---------|
------------------------|-----------------------|---------|---------|---------|
-------9----9--7----6s--|--7--6--7--------------|---------|---------|---------|
------------------------|-----------------------|---------|---------|---------|
--9---------------------|-----------7----9------|---------|---------|---------|
------------------------|-----------------------|---------|---------|---------|


             v             v     v                    v     v   
---------|--12---------L--12-----9--|---L---------L---9-----0--|
---------|--10---------L--10----10--|---L---------L--10----10--|
---------|--11---------L--11-----9--|-------------L---9-----9--|
---------|---0---------L---0-----0--|---L---------L---0-----x--|
---------|--------------------------|--------------------------|
---------|--------------------------|--------------------------|


                                     
---L---------L-----------|--------------------|-------------------|
---L---------L-----------|--10----------------|-------------------|
---L---------L--------6--|--------------------|-------------------|
---L---------L-----7-----|--------------------|-------------------|
----------------9--------|--------------------|-------------------|
-------------------------|--------------------|-------------------|


   
-----------------12----9--|--L----------------|-------------------------|
-------------10-----------|-------------------|------------------10-----|
---------11---------------|-------------------|---------------7------7--|
--------------------------|-------------------|------------7------------|
--------------------------|-------------------|---------9---------------|
--------------------------|-------------------|-------------------------|


              
-------------------|-----------------12----9--|--L----------------|
--L----------------|-------------10-----------|-------------------|
--L----------------|---------11---------------|-------------------|
-------------------|--------------------------|-------------------|
-------------------|--------------------------|-------------------|
-------------------|--------------------------|-------------------|


      
-----------------------------|------------------------|-----------------------|
---------10S--12--10---------|------------------------|-----------------------|
----------------------11--9--|-------9----9--7----6s--|--7--6--7--------------|
-----------------------------|------------------------|-----------------------|
-----------------------------|--9---------------------|-----------7----9------|
-----------------------------|------------------------|-----------------------|


  
------------------------|-----------------------|------------------------|
------------------------|-----------------------|------------------------|
-------9----9--7----6s--|--7--6--7--------------|-------9----9--7----6s--|
------------------------|-----------------------|------------------------|
--9---------------------|-----------7----9------|--9---------------------|
------------------------|-----------------------|------------------------|


     
-----------------------|------------------------|-----------------------|
-----------------------|------------------------|-----------------------|
--7--6--7--------------|-------9----9--7----6s--|--7--6--7--------------|
-----------------------|------------------------|-----------------------|
-----------7----9------|--9---------------------|-----------7----9------|
-----------------------|------------------------|-----------------------|


    
------------------------|-----------------------|------------------------|
------------------------|-----------------------|------------------------|
-------9----9--7----6s--|--7--6--7--------------|-------9----9--7----6s--|
------------------------|-----------------------|------------------------|
--9---------------------|-----------7----9------|--9---------------------|
------------------------|-----------------------|------------------------|


     
-----------------------|------------------------|-----------------------|
-----------------------|------------------------|-----------------------|
--7--6--7--------------|-------9----9--7----6s--|--7--6--7--------------|
-----------------------|------------------------|-----------------------|
-----------7----9------|--9---------------------|-----------7----9------|
-----------------------|------------------------|-----------------------|


                          
------------------------|-----------------------|--------------------|---------|
------------------------|-----------------------|--------------------|---------|
-------9----9--7----6s--|--7--6--7--------------|--------------------|---------|
------------------------|-----------------------|--------------------|---------|
--9---------------------|-----------7----9------|--L\----------------|---------|
------------------------|-----------------------|--------------------|---------|


---------|---------|---------||
---------|---------|---------||
---------|---------|---------||
---------|---------|---------||
---------|---------|---------||
---------|---------|---------||


Tablature Legend
----------------
L - tied note
x - dead note
g - grace note
(n) - ghost note
> - accentuded note
NH - natural harmonic
AH - artificial harmonic
TH - tapped harmonic
SH - semi harmonic
PH - pitch harmonic
h - hammer on
p - pull off
b - bend
br - bendRelease
pb - preBend
pbr - preBendRelease
brb - bendReleaseBend
\n/ - tremolo bar dip
\n - tremolo bar dive
-/n - tremolo bar Release up
/n\ - tremolo bar inverted dip
/n - tremolo bar return
-\n - tremolo bar Release down
S - shift slide
s - legato slide
/ -  slide into from below or out of upwards
\ -  slide into from above or out of downwards
~ - vibrato
W - wide vibrato
tr - trill
TP - tremolo picking
T - tapping
S - slap
P - pop
< - fade in
^ - brush up
v - brush down

Comments

Guest